ISO-10303-21;
HEADER;
FILE_DESCRIPTION (( 'STEP AP203' ),
    '1' );
FILE_NAME ('Q-DWWP-R12-12.7-1064-SH-M.STEP',
    '2020-12-22T08:52:51',
    ( '' ),
    ( '' ),
    'SwSTEP 2.0',
    'SolidWorks 2020',
    '' );
FILE_SCHEMA (( 'CONFIG_CONTROL_DESIGN' ));
ENDSEC;

DATA;
#1 = ORIENTED_EDGE ( 'NONE', *, *, #49, .F. ) ;
#2 = DIRECTION ( 'NONE',  ( 0.000000000000000000, 0.000000000000000000, 1.000000000000000000 ) ) ;
#3 = APPLICATION_PROTOCOL_DEFINITION ( 'international standard', 'config_control_design', 1994, #30 ) ;
#4 = CC_DESIGN_APPROVAL ( #304, ( #153 ) ) ;
#5 = VECTOR ( 'NONE', #279, 1000.000000000000000 ) ;
#6 = EDGE_LOOP ( 'NONE', ( #256, #34 ) ) ;
#7 = PERSON_AND_ORGANIZATION_ROLE ( 'design_supplier' ) ;
#8 = ADVANCED_FACE ( 'NONE', ( #104 ), #253, .F. ) ;
#9 = DIRECTION ( 'NONE',  ( -1.000000000000000000, -0.000000000000000000, -0.000000000000000000 ) ) ;
#10 = ORIENTED_EDGE ( 'NONE', *, *, #96, .T. ) ;
#11 = ORIENTED_EDGE ( 'NONE', *, *, #208, .T. ) ;
#12 = PERSON_AND_ORGANIZATION_ROLE ( 'creator' ) ;
#13 = VERTEX_POINT ( 'NONE', #251 ) ;
#14 = LINE ( 'NONE', #110, #231 ) ;
#15 = CARTESIAN_POINT ( 'NONE',  ( 1.500000000000000000, 0.000000000000000000, 0.000000000000000000 ) ) ;
#16 = CC_DESIGN_SECURITY_CLASSIFICATION ( #308, ( #153 ) ) ;
#17 = EDGE_LOOP ( 'NONE', ( #223, #102, #275, #95 ) ) ;
#18 = DIRECTION ( 'NONE',  ( 0.000000000000000000, 0.000000000000000000, -1.000000000000000000 ) ) ;
#19 = APPROVAL_DATE_TIME ( #181, #228 ) ;
#20 = CARTESIAN_POINT ( 'NONE',  ( 1.500000000000000000, 0.000000000000000000, 5.000000000000000000 ) ) ;
#21 = DIRECTION ( 'NONE',  ( 0.000000000000000000, 0.000000000000000000, 1.000000000000000000 ) ) ;
#22 = PRODUCT_DEFINITION_SHAPE ( 'NONE', 'NONE',  #130 ) ;
#23 = CC_DESIGN_PERSON_AND_ORGANIZATION_ASSIGNMENT ( #98, #12, ( #130 ) ) ;
#24 = CARTESIAN_POINT ( 'NONE',  ( -1.614212418857619014, 3.673940397442059868E-16, -3.000000000000000000 ) ) ;
#25 =( GEOMETRIC_REPRESENTATION_CONTEXT ( 3 ) GLOBAL_UNCERTAINTY_ASSIGNED_CONTEXT ( ( #243 ) ) GLOBAL_UNIT_ASSIGNED_CONTEXT ( ( #202, #92, #150 ) ) REPRESENTATION_CONTEXT ( 'NONE', 'WORKASPACE' ) );
#26 = FACE_OUTER_BOUND ( 'NONE', #281, .T. ) ;
#27 = ADVANCED_FACE ( 'NONE', ( #230 ), #206, .F. ) ;
#28 = AXIS2_PLACEMENT_3D ( 'NONE', #187, #57, #287 ) ;
#29 = CIRCLE ( 'NONE', #186, 3.000000000000000000 ) ;
#30 = APPLICATION_CONTEXT ( 'configuration controlled 3d designs of mechanical parts and assemblies' ) ;
#31 = PERSON ( 'UNSPECIFIED', 'UNSPECIFIED', 'UNSPECIFIED', ('UNSPECIFIED'), ('UNSPECIFIED'), ('UNSPECIFIED') ) ;
#32 = CARTESIAN_POINT ( 'NONE',  ( -1.614212418857619014, 0.000000000000000000, 3.000000000000000000 ) ) ;
#33 = DIRECTION ( 'NONE',  ( 0.000000000000000000, 0.000000000000000000, 1.000000000000000000 ) ) ;
#34 = ORIENTED_EDGE ( 'NONE', *, *, #183, .F. ) ;
#35 = CC_DESIGN_DATE_AND_TIME_ASSIGNMENT ( #116, #94, ( #308 ) ) ;
#36 = DIRECTION ( 'NONE',  ( 0.000000000000000000, 0.000000000000000000, -1.000000000000000000 ) ) ;
#37 = APPROVAL_STATUS ( 'not_yet_approved' ) ;
#38 = FACE_OUTER_BOUND ( 'NONE', #17, .T. ) ;
#39 = APPROVAL_PERSON_ORGANIZATION ( #167, #304, #244 ) ;
#40 = CIRCLE ( 'NONE', #28, 5.000000000000000000 ) ;
#41 = APPROVAL_DATE_TIME ( #254, #86 ) ;
#42 = DIRECTION ( 'NONE',  ( -1.000000000000000000, -0.000000000000000000, -0.000000000000000000 ) ) ;
#43 = ORIENTED_EDGE ( 'NONE', *, *, #330, .T. ) ;
#44 = DIRECTION ( 'NONE',  ( -0.000000000000000000, 0.000000000000000000, 1.000000000000000000 ) ) ;
#45 = CARTESIAN_POINT ( 'NONE',  ( 0.5000000000000004441, 0.000000000000000000, 3.000000000000000000 ) ) ;
#46 = EDGE_LOOP ( 'NONE', ( #316, #1 ) ) ;
#47 = APPROVAL_ROLE ( '' ) ;
#48 = APPROVAL_PERSON_ORGANIZATION ( #248, #228, #303 ) ;
#49 = EDGE_CURVE ( 'NONE', #69, #268, #50, .T. ) ;
#50 = CIRCLE ( 'NONE', #136, 3.000000000000000000 ) ;
#51 = CARTESIAN_POINT ( 'NONE',  ( -1.500000000000000000, 0.000000000000000000, 0.000000000000000000 ) ) ;
#52 = APPLICATION_PROTOCOL_DEFINITION ( 'international standard', 'config_control_design', 1994, #59 ) ;
#53 = DIRECTION ( 'NONE',  ( -1.000000000000000000, -0.000000000000000000, -0.000000000000000000 ) ) ;
#54 = AXIS2_PLACEMENT_3D ( 'NONE', #123, #79, #149 ) ;
#55 = CIRCLE ( 'NONE', #236, 5.000000000000000000 ) ;
#56 = CARTESIAN_POINT ( 'NONE',  ( 0.5000000000000002220, 3.000000000000000000, 0.000000000000000000 ) ) ;
#57 = DIRECTION ( 'NONE',  ( -1.000000000000000000, -0.000000000000000000, -0.000000000000000000 ) ) ;
#58 = CIRCLE ( 'NONE', #324, 5.000000000000000000 ) ;
#59 = APPLICATION_CONTEXT ( 'configuration controlled 3d designs of mechanical parts and assemblies' ) ;
#60 = LINE ( 'NONE', #163, #207 ) ;
#61 = CC_DESIGN_PERSON_AND_ORGANIZATION_ASSIGNMENT ( #276, #7, ( #153 ) ) ;
#62 = VERTEX_POINT ( 'NONE', #255 ) ;
#63 = CARTESIAN_POINT ( 'NONE',  ( -0.5000000000000002220, 0.000000000000000000, 3.000000000000000000 ) ) ;
#64 = DIRECTION ( 'NONE',  ( -1.000000000000000000, -0.000000000000000000, -0.000000000000000000 ) ) ;
#65 = VERTEX_POINT ( 'NONE', #156 ) ;
#66 = PERSON_AND_ORGANIZATION_ROLE ( 'creator' ) ;
#67 = CYLINDRICAL_SURFACE ( 'NONE', #137, 3.000000000000000000 ) ;
#68 = CIRCLE ( 'NONE', #78, 3.000000000000000000 ) ;
#69 = VERTEX_POINT ( 'NONE', #204 ) ;
#70 = CARTESIAN_POINT ( 'NONE',  ( -1.500000000000000000, 6.123233995736766282E-16, -5.000000000000000000 ) ) ;
#71 = ORIENTED_EDGE ( 'NONE', *, *, #146, .F. ) ;
#72 = APPROVAL_STATUS ( 'not_yet_approved' ) ;
#73 = CARTESIAN_POINT ( 'NONE',  ( -1.614212418857619014, 0.000000000000000000, 0.000000000000000000 ) ) ;
#74 = EDGE_CURVE ( 'NONE', #13, #69, #302, .T. ) ;
#75 = DIRECTION ( 'NONE',  ( -1.000000000000000000, -0.000000000000000000, -0.000000000000000000 ) ) ;
#76 = SECURITY_CLASSIFICATION_LEVEL ( 'unclassified' ) ;
#77 = ORGANIZATION ( 'UNSPECIFIED', 'UNSPECIFIED', '' ) ;
#78 = AXIS2_PLACEMENT_3D ( 'NONE', #241, #111, #36 ) ;
#79 = DIRECTION ( 'NONE',  ( -1.000000000000000000, -0.000000000000000000, -0.000000000000000000 ) ) ;
#80 = VECTOR ( 'NONE', #212, 1000.000000000000000 ) ;
#81 = CIRCLE ( 'NONE', #261, 3.000000000000000000 ) ;
#82 = DIRECTION ( 'NONE',  ( -1.000000000000000000, -0.000000000000000000, -0.000000000000000000 ) ) ;
#83 = ADVANCED_BREP_SHAPE_REPRESENTATION ( 'Q-DWWP-R12-12.7-1064-SH-M', ( #131, #323 ), #25 ) ;
#84 = DIRECTION ( 'NONE',  ( -1.000000000000000000, -0.000000000000000000, -0.000000000000000000 ) ) ;
#85 = DIRECTION ( 'NONE',  ( -1.000000000000000000, -0.000000000000000000, -0.000000000000000000 ) ) ;
#86 = APPROVAL ( #72, 'UNSPECIFIED' ) ;
#87 = CARTESIAN_POINT ( 'NONE',  ( 0.5000000000000004441, 0.000000000000000000, 0.000000000000000000 ) ) ;
#88 = AXIS2_PLACEMENT_3D ( 'NONE', #266, #291, #166 ) ;
#89 = ORIENTED_EDGE ( 'NONE', *, *, #260, .F. ) ;
#90 = CARTESIAN_POINT ( 'NONE',  ( -1.500000000000000000, 3.000000000000000000, 0.000000000000000000 ) ) ;
#91 = DESIGN_CONTEXT ( 'detailed design', #59, 'design' ) ;
#92 =( NAMED_UNIT ( * ) PLANE_ANGLE_UNIT ( ) SI_UNIT ( $, .RADIAN. ) );
#93 = EDGE_LOOP ( 'NONE', ( #127, #169 ) ) ;
#94 = DATE_TIME_ROLE ( 'classification_date' ) ;
#95 = ORIENTED_EDGE ( 'NONE', *, *, #262, .F. ) ;
#96 = EDGE_CURVE ( 'NONE', #176, #318, #58, .T. ) ;
#97 = FACE_BOUND ( 'NONE', #198, .T. ) ;
#98 = PERSON_AND_ORGANIZATION ( #31, #77 ) ;
#99 = LINE ( 'NONE', #168, #126 ) ;
#100 = CIRCLE ( 'NONE', #283, 3.000000000000000000 ) ;
#101 = EDGE_LOOP ( 'NONE', ( #71, #247, #144, #203 ) ) ;
#102 = ORIENTED_EDGE ( 'NONE', *, *, #74, .T. ) ;
#103 = COORDINATED_UNIVERSAL_TIME_OFFSET ( 8, 0, .AHEAD. ) ;
#104 = FACE_OUTER_BOUND ( 'NONE', #93, .T. ) ;
#105 = CC_DESIGN_PERSON_AND_ORGANIZATION_ASSIGNMENT ( #270, #66, ( #153 ) ) ;
#106 = ADVANCED_FACE ( 'NONE', ( #321 ), #154, .T. ) ;
#107 = AXIS2_PLACEMENT_3D ( 'NONE', #174, #272, #44 ) ;
#108 = ADVANCED_FACE ( 'NONE', ( #132, #97 ), #200, .F. ) ;
#109 = PLANE ( 'NONE',  #125 ) ;
#110 = CARTESIAN_POINT ( 'NONE',  ( -1.614212418857619014, 6.123233995736766282E-16, -5.000000000000000000 ) ) ;
#111 = DIRECTION ( 'NONE',  ( 1.000000000000000000, 0.000000000000000000, 0.000000000000000000 ) ) ;
#112 = ORIENTED_EDGE ( 'NONE', *, *, #284, .F. ) ;
#113 = CARTESIAN_POINT ( 'NONE',  ( -1.614212418857619014, 0.000000000000000000, 0.000000000000000000 ) ) ;
#114 = CC_DESIGN_APPROVAL ( #228, ( #130 ) ) ;
#115 = CARTESIAN_POINT ( 'NONE',  ( -0.5000000000000002220, 0.000000000000000000, 0.000000000000000000 ) ) ;
#116 = DATE_AND_TIME ( #267, #278 ) ;
#117 = DIRECTION ( 'NONE',  ( -1.000000000000000000, -0.000000000000000000, -0.000000000000000000 ) ) ;
#118 = ORIENTED_EDGE ( 'NONE', *, *, #184, .T. ) ;
#119 = ORIENTED_EDGE ( 'NONE', *, *, #184, .F. ) ;
#120 = APPROVAL_STATUS ( 'not_yet_approved' ) ;
#121 = DIRECTION ( 'NONE',  ( -1.000000000000000000, -0.000000000000000000, -0.000000000000000000 ) ) ;
#122 = ORIENTED_EDGE ( 'NONE', *, *, #307, .F. ) ;
#123 = CARTESIAN_POINT ( 'NONE',  ( -1.614212418857619014, 0.000000000000000000, 0.000000000000000000 ) ) ;
#124 = LOCAL_TIME ( 16, 52, 51.00000000000000000, #280 ) ;
#125 = AXIS2_PLACEMENT_3D ( 'NONE', #56, #311, #312 ) ;
#126 = VECTOR ( 'NONE', #117, 1000.000000000000000 ) ;
#127 = ORIENTED_EDGE ( 'NONE', *, *, #288, .F. ) ;
#128 = CALENDAR_DATE ( 2020, 22, 12 ) ;
#129 = DIRECTION ( 'NONE',  ( 1.000000000000000000, 0.000000000000000000, 0.000000000000000000 ) ) ;
#130 = PRODUCT_DEFINITION ( 'UNKNOWN', '', #153, #91 ) ;
#131 = MANIFOLD_SOLID_BREP ( 'Ðý×', #333 ) ;
#132 = FACE_OUTER_BOUND ( 'NONE', #6, .T. ) ;
#133 = PLANE ( 'NONE',  #233 ) ;
#134 = CIRCLE ( 'NONE', #88, 3.000000000000000000 ) ;
#135 = CYLINDRICAL_SURFACE ( 'NONE', #215, 3.000000000000000000 ) ;
#136 = AXIS2_PLACEMENT_3D ( 'NONE', #182, #53, #177 ) ;
#137 = AXIS2_PLACEMENT_3D ( 'NONE', #294, #245, #317 ) ;
#138 = FACE_OUTER_BOUND ( 'NONE', #101, .T. ) ;
#139 = DIRECTION ( 'NONE',  ( 0.000000000000000000, 0.000000000000000000, 1.000000000000000000 ) ) ;
#140 = VERTEX_POINT ( 'NONE', #20 ) ;
#141 = LINE ( 'NONE', #32, #80 ) ;
#142 = DATE_TIME_ROLE ( 'creation_date' ) ;
#143 = CARTESIAN_POINT ( 'NONE',  ( -1.500000000000000000, 0.000000000000000000, 3.000000000000000000 ) ) ;
#144 = ORIENTED_EDGE ( 'NONE', *, *, #307, .T. ) ;
#145 = SHAPE_DEFINITION_REPRESENTATION ( #22, #83 ) ;
#146 = EDGE_CURVE ( 'NONE', #65, #318, #14, .T. ) ;
#147 = CARTESIAN_POINT ( 'NONE',  ( 1.500000000000000444, 0.000000000000000000, 0.000000000000000000 ) ) ;
#148 = ORIENTED_EDGE ( 'NONE', *, *, #286, .T. ) ;
#149 = DIRECTION ( 'NONE',  ( 0.000000000000000000, 0.000000000000000000, 1.000000000000000000 ) ) ;
#150 =( NAMED_UNIT ( * ) SI_UNIT ( $, .STERADIAN. ) SOLID_ANGLE_UNIT ( ) );
#151 = EDGE_LOOP ( 'NONE', ( #89, #295 ) ) ;
#152 = CALENDAR_DATE ( 2020, 22, 12 ) ;
#153 = PRODUCT_DEFINITION_FORMATION_WITH_SPECIFIED_SOURCE ( 'ANY', '', #310, .NOT_KNOWN. ) ;
#154 = CYLINDRICAL_SURFACE ( 'NONE', #54, 5.000000000000000000 ) ;
#155 = DATE_AND_TIME ( #152, #161 ) ;
#156 = CARTESIAN_POINT ( 'NONE',  ( 1.500000000000000000, 6.123233995736766282E-16, -5.000000000000000000 ) ) ;
#157 = DIRECTION ( 'NONE',  ( 0.000000000000000000, 0.000000000000000000, 1.000000000000000000 ) ) ;
#158 = EDGE_CURVE ( 'NONE', #318, #176, #242, .T. ) ;
#159 = CARTESIAN_POINT ( 'NONE',  ( -1.500000000000000000, 0.000000000000000000, 0.000000000000000000 ) ) ;
#160 = ADVANCED_FACE ( 'NONE', ( #259 ), #109, .F. ) ;
#161 = LOCAL_TIME ( 16, 52, 51.00000000000000000, #178 ) ;
#162 = CC_DESIGN_DATE_AND_TIME_ASSIGNMENT ( #155, #142, ( #130 ) ) ;
#163 = CARTESIAN_POINT ( 'NONE',  ( -1.614212418857619014, 0.000000000000000000, 3.000000000000000000 ) ) ;
#164 = CARTESIAN_POINT ( 'NONE',  ( 0.000000000000000000, 0.000000000000000000, 0.000000000000000000 ) ) ;
#165 = ORIENTED_EDGE ( 'NONE', *, *, #289, .F. ) ;
#166 = DIRECTION ( 'NONE',  ( 0.000000000000000000, 0.000000000000000000, 1.000000000000000000 ) ) ;
#167 = PERSON_AND_ORGANIZATION ( #31, #77 ) ;
#168 = CARTESIAN_POINT ( 'NONE',  ( -1.614212418857619014, 0.000000000000000000, 5.000000000000000000 ) ) ;
#169 = ORIENTED_EDGE ( 'NONE', *, *, #237, .F. ) ;
#170 = PERSON_AND_ORGANIZATION ( #31, #77 ) ;
#171 = CARTESIAN_POINT ( 'NONE',  ( 1.500000000000000444, 0.000000000000000000, 0.000000000000000000 ) ) ;
#172 = AXIS2_PLACEMENT_3D ( 'NONE', #221, #75, #298 ) ;
#173 = VERTEX_POINT ( 'NONE', #285 ) ;
#174 = CARTESIAN_POINT ( 'NONE',  ( 1.500000000000000222, 5.000000000000000000, 0.000000000000000000 ) ) ;
#175 = DATE_AND_TIME ( #128, #199 ) ;
#176 = VERTEX_POINT ( 'NONE', #189 ) ;
#177 = DIRECTION ( 'NONE',  ( 0.000000000000000000, 0.000000000000000000, 1.000000000000000000 ) ) ;
#178 = COORDINATED_UNIVERSAL_TIME_OFFSET ( 8, 0, .AHEAD. ) ;
#179 = PERSON_AND_ORGANIZATION ( #31, #77 ) ;
#180 = CARTESIAN_POINT ( 'NONE',  ( -1.614212418857619014, 3.673940397442059868E-16, -3.000000000000000000 ) ) ;
#181 = DATE_AND_TIME ( #219, #124 ) ;
#182 = CARTESIAN_POINT ( 'NONE',  ( -1.500000000000000000, 0.000000000000000000, 0.000000000000000000 ) ) ;
#183 = EDGE_CURVE ( 'NONE', #65, #140, #40, .T. ) ;
#184 = EDGE_CURVE ( 'NONE', #240, #62, #334, .T. ) ;
#185 = AXIS2_PLACEMENT_3D ( 'NONE', #159, #209, #234 ) ;
#186 = AXIS2_PLACEMENT_3D ( 'NONE', #147, #121, #195 ) ;
#187 = CARTESIAN_POINT ( 'NONE',  ( 1.500000000000000000, 0.000000000000000000, 0.000000000000000000 ) ) ;
#188 = ADVANCED_FACE ( 'NONE', ( #26 ), #135, .F. ) ;
#189 = CARTESIAN_POINT ( 'NONE',  ( -1.500000000000000000, 0.000000000000000000, 5.000000000000000000 ) ) ;
#190 = DIRECTION ( 'NONE',  ( -1.000000000000000000, -0.000000000000000000, -0.000000000000000000 ) ) ;
#191 = CC_DESIGN_APPROVAL ( #86, ( #308 ) ) ;
#192 = DIRECTION ( 'NONE',  ( 0.000000000000000000, 0.000000000000000000, -1.000000000000000000 ) ) ;
#193 = ORIENTED_EDGE ( 'NONE', *, *, #146, .T. ) ;
#194 = CYLINDRICAL_SURFACE ( 'NONE', #210, 5.000000000000000000 ) ;
#195 = DIRECTION ( 'NONE',  ( 0.000000000000000000, 0.000000000000000000, 1.000000000000000000 ) ) ;
#196 = ORIENTED_EDGE ( 'NONE', *, *, #289, .T. ) ;
#197 = COORDINATED_UNIVERSAL_TIME_OFFSET ( 8, 0, .AHEAD. ) ;
#198 = EDGE_LOOP ( 'NONE', ( #227, #196 ) ) ;
#199 = LOCAL_TIME ( 16, 52, 51.00000000000000000, #201 ) ;
#200 = PLANE ( 'NONE',  #107 ) ;
#201 = COORDINATED_UNIVERSAL_TIME_OFFSET ( 8, 0, .AHEAD. ) ;
#202 =( LENGTH_UNIT ( ) NAMED_UNIT ( * ) SI_UNIT ( .MILLI., .METRE. ) );
#203 = ORIENTED_EDGE ( 'NONE', *, *, #158, .F. ) ;
#204 = CARTESIAN_POINT ( 'NONE',  ( -1.500000000000000000, 3.673940397442059868E-16, -3.000000000000000000 ) ) ;
#205 = ADVANCED_FACE ( 'NONE', ( #335, #257 ), #133, .F. ) ;
#206 = CYLINDRICAL_SURFACE ( 'NONE', #172, 3.000000000000000000 ) ;
#207 = VECTOR ( 'NONE', #190, 1000.000000000000000 ) ;
#208 = EDGE_CURVE ( 'NONE', #268, #69, #134, .T. ) ;
#209 = DIRECTION ( 'NONE',  ( -1.000000000000000000, -0.000000000000000000, -0.000000000000000000 ) ) ;
#210 = AXIS2_PLACEMENT_3D ( 'NONE', #113, #293, #238 ) ;
#211 = CC_DESIGN_PERSON_AND_ORGANIZATION_ASSIGNMENT ( #170, #327, ( #308 ) ) ;
#212 = DIRECTION ( 'NONE',  ( -1.000000000000000000, -0.000000000000000000, -0.000000000000000000 ) ) ;
#213 = ORIENTED_EDGE ( 'NONE', *, *, #232, .T. ) ;
#214 = DIRECTION ( 'NONE',  ( -1.000000000000000000, -0.000000000000000000, -0.000000000000000000 ) ) ;
#215 = AXIS2_PLACEMENT_3D ( 'NONE', #235, #82, #157 ) ;
#216 = ADVANCED_FACE ( 'NONE', ( #138 ), #194, .T. ) ;
#217 = MECHANICAL_CONTEXT ( 'NONE', #30, 'mechanical' ) ;
#218 = VERTEX_POINT ( 'NONE', #63 ) ;
#219 = CALENDAR_DATE ( 2020, 22, 12 ) ;
#220 = ORIENTED_EDGE ( 'NONE', *, *, #260, .T. ) ;
#221 = CARTESIAN_POINT ( 'NONE',  ( -1.614212418857619014, 0.000000000000000000, 0.000000000000000000 ) ) ;
#222 = DIRECTION ( 'NONE',  ( -1.000000000000000000, -0.000000000000000000, -0.000000000000000000 ) ) ;
#223 = ORIENTED_EDGE ( 'NONE', *, *, #288, .T. ) ;
#224 = LOCAL_TIME ( 16, 52, 51.00000000000000000, #197 ) ;
#225 = FACE_OUTER_BOUND ( 'NONE', #320, .T. ) ;
#226 = AXIS2_PLACEMENT_3D ( 'NONE', #115, #277, #252 ) ;
#227 = ORIENTED_EDGE ( 'NONE', *, *, #284, .T. ) ;
#228 = APPROVAL ( #37, 'UNSPECIFIED' ) ;
#229 = PERSON_AND_ORGANIZATION ( #31, #77 ) ;
#230 = FACE_OUTER_BOUND ( 'NONE', #250, .T. ) ;
#231 = VECTOR ( 'NONE', #84, 1000.000000000000000 ) ;
#232 = EDGE_CURVE ( 'NONE', #173, #325, #141, .T. ) ;
#233 = AXIS2_PLACEMENT_3D ( 'NONE', #90, #263, #192 ) ;
#234 = DIRECTION ( 'NONE',  ( 0.000000000000000000, 0.000000000000000000, 1.000000000000000000 ) ) ;
#235 = CARTESIAN_POINT ( 'NONE',  ( -1.614212418857619014, 0.000000000000000000, 0.000000000000000000 ) ) ;
#236 = AXIS2_PLACEMENT_3D ( 'NONE', #15, #222, #33 ) ;
#237 = EDGE_CURVE ( 'NONE', #13, #218, #68, .T. ) ;
#238 = DIRECTION ( 'NONE',  ( 0.000000000000000000, 0.000000000000000000, 1.000000000000000000 ) ) ;
#239 = DIRECTION ( 'NONE',  ( 1.000000000000000000, 0.000000000000000000, 0.000000000000000000 ) ) ;
#240 = VERTEX_POINT ( 'NONE', #313 ) ;
#241 = CARTESIAN_POINT ( 'NONE',  ( -0.5000000000000002220, 0.000000000000000000, 0.000000000000000000 ) ) ;
#242 = CIRCLE ( 'NONE', #185, 5.000000000000000000 ) ;
#243 = UNCERTAINTY_MEASURE_WITH_UNIT (LENGTH_MEASURE( 1.000000000000000082E-05 ), #202, 'distance_accuracy_value', 'NONE');
#244 = APPROVAL_ROLE ( '' ) ;
#245 = DIRECTION ( 'NONE',  ( -1.000000000000000000, -0.000000000000000000, -0.000000000000000000 ) ) ;
#246 = EDGE_LOOP ( 'NONE', ( #43, #193, #292, #122 ) ) ;
#247 = ORIENTED_EDGE ( 'NONE', *, *, #183, .T. ) ;
#248 = PERSON_AND_ORGANIZATION ( #31, #77 ) ;
#249 = CARTESIAN_POINT ( 'NONE',  ( 0.5000000000000004441, 0.000000000000000000, 0.000000000000000000 ) ) ;
#250 = EDGE_LOOP ( 'NONE', ( #165, #118, #148, #300 ) ) ;
#251 = CARTESIAN_POINT ( 'NONE',  ( -0.5000000000000002220, 3.673940397442059868E-16, -3.000000000000000000 ) ) ;
#252 = DIRECTION ( 'NONE',  ( 0.000000000000000000, 0.000000000000000000, -1.000000000000000000 ) ) ;
#253 = PLANE ( 'NONE',  #306 ) ;
#254 = DATE_AND_TIME ( #296, #224 ) ;
#255 = CARTESIAN_POINT ( 'NONE',  ( 0.5000000000000004441, 3.673940397442059868E-16, -3.000000000000000000 ) ) ;
#256 = ORIENTED_EDGE ( 'NONE', *, *, #330, .F. ) ;
#257 = FACE_OUTER_BOUND ( 'NONE', #301, .T. ) ;
#258 = APPROVAL_PERSON_ORGANIZATION ( #229, #86, #47 ) ;
#259 = FACE_OUTER_BOUND ( 'NONE', #151, .T. ) ;
#260 = EDGE_CURVE ( 'NONE', #325, #62, #309, .T. ) ;
#261 = AXIS2_PLACEMENT_3D ( 'NONE', #171, #9, #322 ) ;
#262 = EDGE_CURVE ( 'NONE', #218, #268, #60, .T. ) ;
#263 = DIRECTION ( 'NONE',  ( 1.000000000000000000, 0.000000000000000000, 0.000000000000000000 ) ) ;
#264 = DIRECTION ( 'NONE',  ( 0.000000000000000000, 0.000000000000000000, 1.000000000000000000 ) ) ;
#265 = ORIENTED_EDGE ( 'NONE', *, *, #158, .T. ) ;
#266 = CARTESIAN_POINT ( 'NONE',  ( -1.500000000000000000, 0.000000000000000000, 0.000000000000000000 ) ) ;
#267 = CALENDAR_DATE ( 2020, 22, 12 ) ;
#268 = VERTEX_POINT ( 'NONE', #143 ) ;
#269 = AXIS2_PLACEMENT_3D ( 'NONE', #87, #214, #2 ) ;
#270 = PERSON_AND_ORGANIZATION ( #31, #77 ) ;
#271 = ORIENTED_EDGE ( 'NONE', *, *, #237, .T. ) ;
#272 = DIRECTION ( 'NONE',  ( -1.000000000000000000, 0.000000000000000000, -0.000000000000000000 ) ) ;
#273 = ADVANCED_FACE ( 'NONE', ( #225 ), #299, .F. ) ;
#274 = DIRECTION ( 'NONE',  ( 0.000000000000000000, 0.000000000000000000, 1.000000000000000000 ) ) ;
#275 = ORIENTED_EDGE ( 'NONE', *, *, #49, .T. ) ;
#276 = PERSON_AND_ORGANIZATION ( #31, #77 ) ;
#277 = DIRECTION ( 'NONE',  ( 1.000000000000000000, 0.000000000000000000, 0.000000000000000000 ) ) ;
#278 = LOCAL_TIME ( 16, 52, 51.00000000000000000, #103 ) ;
#279 = DIRECTION ( 'NONE',  ( -1.000000000000000000, -0.000000000000000000, -0.000000000000000000 ) ) ;
#280 = COORDINATED_UNIVERSAL_TIME_OFFSET ( 8, 0, .AHEAD. ) ;
#281 = EDGE_LOOP ( 'NONE', ( #331, #271, #297, #11 ) ) ;
#282 = ADVANCED_FACE ( 'NONE', ( #38 ), #67, .F. ) ;
#283 = AXIS2_PLACEMENT_3D ( 'NONE', #249, #64, #274 ) ;
#284 = EDGE_CURVE ( 'NONE', #173, #240, #29, .T. ) ;
#285 = CARTESIAN_POINT ( 'NONE',  ( 1.500000000000000444, 0.000000000000000000, 3.000000000000000000 ) ) ;
#286 = EDGE_CURVE ( 'NONE', #62, #325, #100, .T. ) ;
#287 = DIRECTION ( 'NONE',  ( 0.000000000000000000, 0.000000000000000000, 1.000000000000000000 ) ) ;
#288 = EDGE_CURVE ( 'NONE', #218, #13, #326, .T. ) ;
#289 = EDGE_CURVE ( 'NONE', #240, #173, #81, .T. ) ;
#290 = VECTOR ( 'NONE', #85, 1000.000000000000000 ) ;
#291 = DIRECTION ( 'NONE',  ( -1.000000000000000000, -0.000000000000000000, -0.000000000000000000 ) ) ;
#292 = ORIENTED_EDGE ( 'NONE', *, *, #96, .F. ) ;
#293 = DIRECTION ( 'NONE',  ( -1.000000000000000000, -0.000000000000000000, -0.000000000000000000 ) ) ;
#294 = CARTESIAN_POINT ( 'NONE',  ( -1.614212418857619014, 0.000000000000000000, 0.000000000000000000 ) ) ;
#295 = ORIENTED_EDGE ( 'NONE', *, *, #286, .F. ) ;
#296 = CALENDAR_DATE ( 2020, 22, 12 ) ;
#297 = ORIENTED_EDGE ( 'NONE', *, *, #262, .T. ) ;
#298 = DIRECTION ( 'NONE',  ( 0.000000000000000000, 0.000000000000000000, 1.000000000000000000 ) ) ;
#299 = CYLINDRICAL_SURFACE ( 'NONE', #315, 3.000000000000000000 ) ;
#300 = ORIENTED_EDGE ( 'NONE', *, *, #232, .F. ) ;
#301 = EDGE_LOOP ( 'NONE', ( #10, #265 ) ) ;
#302 = LINE ( 'NONE', #180, #5 ) ;
#303 = APPROVAL_ROLE ( '' ) ;
#304 = APPROVAL ( #120, 'UNSPECIFIED' ) ;
#305 = DIRECTION ( 'NONE',  ( -1.000000000000000000, -0.000000000000000000, -0.000000000000000000 ) ) ;
#306 = AXIS2_PLACEMENT_3D ( 'NONE', #328, #129, #18 ) ;
#307 = EDGE_CURVE ( 'NONE', #140, #176, #99, .T. ) ;
#308 = SECURITY_CLASSIFICATION ( '', '', #76 ) ;
#309 = CIRCLE ( 'NONE', #269, 3.000000000000000000 ) ;
#310 = PRODUCT ( 'Q-DWWP-R12-12.7-1064-SH-M', 'Q-DWWP-R12-12.7-1064-SH-M', '', ( #217 ) ) ;
#311 = DIRECTION ( 'NONE',  ( -1.000000000000000000, 0.000000000000000000, -0.000000000000000000 ) ) ;
#312 = DIRECTION ( 'NONE',  ( -0.000000000000000000, 0.000000000000000000, 1.000000000000000000 ) ) ;
#313 = CARTESIAN_POINT ( 'NONE',  ( 1.500000000000000444, 3.673940397442059868E-16, -3.000000000000000000 ) ) ;
#314 = PRODUCT_RELATED_PRODUCT_CATEGORY ( 'detail', '', ( #310 ) ) ;
#315 = AXIS2_PLACEMENT_3D ( 'NONE', #73, #42, #264 ) ;
#316 = ORIENTED_EDGE ( 'NONE', *, *, #208, .F. ) ;
#317 = DIRECTION ( 'NONE',  ( 0.000000000000000000, 0.000000000000000000, 1.000000000000000000 ) ) ;
#318 = VERTEX_POINT ( 'NONE', #70 ) ;
#319 = PERSON_AND_ORGANIZATION_ROLE ( 'design_owner' ) ;
#320 = EDGE_LOOP ( 'NONE', ( #119, #112, #213, #220 ) ) ;
#321 = FACE_OUTER_BOUND ( 'NONE', #246, .T. ) ;
#322 = DIRECTION ( 'NONE',  ( 0.000000000000000000, 0.000000000000000000, 1.000000000000000000 ) ) ;
#323 = AXIS2_PLACEMENT_3D ( 'NONE', #164, #139, #239 ) ;
#324 = AXIS2_PLACEMENT_3D ( 'NONE', #51, #305, #21 ) ;
#325 = VERTEX_POINT ( 'NONE', #45 ) ;
#326 = CIRCLE ( 'NONE', #226, 3.000000000000000000 ) ;
#327 = PERSON_AND_ORGANIZATION_ROLE ( 'classification_officer' ) ;
#328 = CARTESIAN_POINT ( 'NONE',  ( -0.5000000000000002220, 3.000000000000000000, 0.000000000000000000 ) ) ;
#329 = APPROVAL_DATE_TIME ( #175, #304 ) ;
#330 = EDGE_CURVE ( 'NONE', #140, #65, #55, .T. ) ;
#331 = ORIENTED_EDGE ( 'NONE', *, *, #74, .F. ) ;
#332 = CC_DESIGN_PERSON_AND_ORGANIZATION_ASSIGNMENT ( #179, #319, ( #310 ) ) ;
#333 = CLOSED_SHELL ( 'NONE', ( #106, #282, #27, #160, #273, #188, #205, #216, #108, #8 ) ) ;
#334 = LINE ( 'NONE', #24, #290 ) ;
#335 = FACE_BOUND ( 'NONE', #46, .T. ) ;
ENDSEC;
END-ISO-10303-21;
